Linkin Park Tablaturas Hybrid Theory

Papercut

Dropped D, Down 1/2 Step
-------------------------
Intro:
Eb|--10----12----13----12----10----12----13----12-------|
Bb|-----10----10----10----10----10----10----10----10----|
F#|-----------------------------------------------------|
C#|-----------------------------------------------------|
G#|-----------------------------------------------------|
C#|-----------------------------------------------------|
Chorus:
Eb|----------------------------------------------|
Bb|----------------------------------------------|
F#|----------10--9--5----------------------------|
C#|--0-0-0----x--x--x--------------------1-1-3---|
G#|--0-0-0----8--7--3--------------------1-1-3---|
C#|--0-0-0-------------------------------1-1-3---|
Verses: (Palm mute for 2nd verse)
Eb|------------------------------------------|
Bb|------------------------------------------|
F#|------------------------------------------|
C#|--0-0-0----3-3-3-3-2-2-------------1-1-3--|
G#|--0-0-0----1-1-1-1-0-0-------------1-1-3--|
C#|--0-0-0----------------------------1-1-3--|
Ending:
Eb|---------------------------------------------------------|
Bb|---------------------------------------------------------|
F#|---------------------------------------------------------|
C#|--8-8-8---8---8-8-10-10-10---5-5-5---5--5-5-5-5---5-5-5--|
G#|--8-8-8---8---8-8-10-10-10---5-5-5---5--5-5-5-5---5-5-5--|
C#|--8-8-8---8---8-8-10-10-10---5-5-5---5--5-5-5-5---5-5-5--|
-----------------------------

One Step Closer

Dropped D, Down 1/2 Step
Intro:
Eb|------------------------|
Bb|------------------------|
Gb|------------------------|
Db|------------------------|
Ab|-----------(7)----------|
Db|--0-(5)-0-----8-7--0-3--|
Verses:
Eb|------------------------|
Bb|------------------------|
Gb|---------7---------5----|
Db|--0-0--0-x---8-7---x----|
Ab|--0-0--0-5---8-7---3----|
Db|--0-0--0-----8-7-0------|
Bridge 1
Eb|---------------------------------------------------------------|
Bb|---------------------------------------------------------------|
Gb|---------------------------------------------------------------|
Db|--5-5---x-x---x-5-5---x-x---x-5-5--x-x---x---------------------|
Ab|--5-5---x-x---x-5-5---x-x---x-5-5--x-x---x---------------------|
Db|--5-5---x-x---x-5-5---x-x---x-5-5--x-x---x---------------------|
Bridge 2:
Eb|-----------------------------------(5)--------(5)-|
Bb|--------------------------------------(5)-(5)-----|
Gb|--------------------------------------------------|
Db|--5-5---x-x---x-5-5---x-x---x-5-5-----------------|
Ab|--5-5---x-x---x-5-5---x-x---x-5-5-----------------|
Db|--5-5---x-x---x-5-5---x-x---x-5-5-----------------|
Chorus
Eb|--------------------------------------------------------------|
Bb|--------------------------------------------------------------|
Gb|--------------------------------------------------------------|
Db|--0--0--12-12--10-10--7---8-8--5-5--7-7--3-3---1-1-1-1-1-1-1--|
Ab|--0--0--12-12--10-10--7---8-8--5-5--7-7--3-3---1-1-1-1-1-1-1--|
Db|--0--0--12-12--10-10--7---8-8--5-5--7-7--3-3---1-1-1-1-1-1-1--|
Other Part
Eb|-------------------------------------------|
Bb|-------------------------------------------|
Gb|-------------------------------------------|
Db|--1-0---0-0---0---1-3-0-0--6------0-0-0---|
Ab|--1-0---0-0---0---1-3-0-0--6------0-0-0---|
Db|--1-0---0-0---0---1-3-0-0--6------0-0-0---|
PM......

With You

http://linkinsoldiers.blogspot.com/

Seven String Arranged For A Six String
(B,F#,B,E,G#,C#)
Intro/Pre Chorus: BASS
C#|--------------------------------|
G#|--------------------------------|
E |--------------------------------|
B |--------------------------------|
F#|--------------------------------|
B |---55--55--55--55---------------|
VERSE
C#|--------------------------------------|
G#|--------------------------------------|
E |---------------------2 --------------|
B |--0--0-0-1--000000--------------------|
F#|--0--0-0-1--000000--------------------|
B |--0--0-0-1--000000--------------------|
Verses:
C#|------------------------------------------------|
G#|---20---19------------------------20--------19--|
E |--------------19---16-------16--------12--------|
B |------------------------------------------------|
F#|------------------------------------------------|
B |------------------------------------------------|
Chorus:
C#|--------------------------------------|
G#|--------------------------------------|
E |---7---7---10--5----------------------|
B |---5---X---8---3----------------------|
F#|---5---5---8---3----------------------|
B |---5---0---8---3----------------------|
-------------------------

Points Of Authority

http://linkinsoldiers.blogspot.com/

Dropped D, Down   Step
Intro:
Eb|------7-------7--------7-------7------------|
Bb|----8---8---8---8---8---8---8---8-----------|
F#|--9--------9-------9-------9----------------|
C#|--------------------------------------------|
G#|--------------------------------------------|
C#|--------------------------------------------|
2nd Intro and Verses:
Eb|--------------------------------------------------------|
Bb|--------------------------------------------------------|
F#|--------------------------------------------------------|
C#|--2-2---2h3---3---0h2---2h3---0h2-2---2h3--x-2-x-0-x-3--|
G#|--2-2---2h3---3---0h2---2h3---0h2-2---2h3--x-2-x-0-x-3--|
C#|--2-2---2h3---3---0h2---2h3---0h2-2---2h3--x-2-x-0-x-3--|
Chorus:
Eb|----------------------------------------|
Bb|----------------------------------------|
F#|--4----5----4----5----4----5----4----5--|
C#|--2----3----2----3----2----3----2----3--|
G#|--2----3----2----3----2----3----2----3--|
C#|--2----3----2----3----2----3----2----3--|

Crawling

Dropped D, Down 1/2 Step
Chorus:
Eb|--------------------------|
Bb|--------------------------|
F#|-------3---------5----2---|
C#|--0----3----3----5----2---|
G#|--0----1----3----3----0---|
C#|--0---------3-------------|

http://linkinsoldiers.blogspot.com/

Runaway

7 String Arranged For A 6 String
Intro:
C#|-----------------------------------------------------------|
G#|-----------------------------------------------------------|
E|--7---7-7-10---10-10--10---10-10-3---3-3-5---5-5--5---5-5--|
B|--7---7-7-10---10-10--10---10-10-3---3-3-5---5-5--5---5-5--|
F#|--5---5-5--8----8--8---8----8--8-1---1-1-3---3-3--3---3-3--|
B|-----------------------------------------------------------|
Chorus:
C#|-----------------------------------------------------------------|
G#|-----------------------------------------------------------------|
E|----------10---10-10--10---10-10---------------------------------|
B|0---0-0---10---10-10--10---10-10-8---8-8-10---10-10--10---10-10--|
F#|0---0-0---8----8---8---8----8--8-8---8-8-10---10-10--10---10-10--|
B|0---0-0--------------------------8---8-8-10---10-10--10---10-10--|
Verses:
C#|-------------------------------------------------------------|
G#|-------------------------------------------------------------|
E|-------------------------------------------------------------|
B|*12-*12-*12-*12-*12-*12-*12-*12-*12-*12-*12-*12-10-10-10-10--|
F#|-------------------------------------------------------------|
B|-------------------------------------------------------------|
PM.............................................
Bridge 2:
C#|---------------------------------------|
G#|---------------------------------------|
E|---------------------------------------|
B|--0---0-0-1-0-0-0---0-0-0-1------------|
F#|--0---0-0-1-0-0-0---0-0-0-1------------|
B|--0---0-0-1-0-0-0---0-0-0-1------------|

By Myself

Dropped D, Down 1/2 Step
Intro and Bridge:
Eb|--------N.H.-----------|
Bb|--------(7)------------|
A#|-----------------------|
C#|--7--7------0-0--1--0--|
G#|--7--7------0-0--1--0--|
C#|--7--7------0-0--1--0--|
PM.... ...
Chorus:
Eb|--------------------|
Bb|--------------------|
A#|--------------------|
C#|--7----7--x-3--x-0--|
G#|--7----7--x-3--x-0--|
C#|--7----7--x-3--x-0--|
Interlude:
Eb|---------------------------|
Bb|---------------------------|
A#|---------------------------|
C#|--3--3----3-3----0---0-----|
G#|--3--3----3-3----0---0-----|
C#|--3--3----3-3----0---0-----|
PM.......................
-------------------------------------

In The End

http://linkinsoldiers.blogspot.com/

Dropped D, Down 1/2 Step
Piano Intro:
Eb|----------------------------------|
Bb|----------------------------------|
F#|----------------------------------|
C#|-----9---9-----5---4--4--4---4-5--|
G#|--7-------------------------------|
C#|----------------------------------|
Verses: (All natural harmonics)
Eb|------------------(7)-----------------------(12)--|
Bb|---------(7)-----------------------(5)------------|
F#|--(5)---------------------(5)---------------------|
C#|--------------------------------------------------|
G#|--------------------------------------------------|
C#|--------------------------------------------------|
Chorus:
Eb|------------------------------------------------------|
Bb|------------------------------------------------------|
F#|--------------7-----5------------------7-----5--------|
C#|--2-----5-----7-----5---0--2-----5-----7-----5-----0--|
G#|--2-----5-----5-----3---0--2-----5-----5-----3-----0--|
C#|--2-----5-----0---------0--2-----5-----0-----------0--|

A Place For My Head

7 String Arranged For A Six String
Intro/Verses:
C#|-------------------------------------------|
G#|-------------------------------------------|
E|---------6-6-6-7-6-4-----------------------|
B|--4---4-----------------7-7--5-5-5-5-5-7---|
F#|-------------------------------------------|
B|-------------------------------------------|
2nd Verse: (Part Two)
C#-------------------------------|
G#-------------------------------|
E--6-------2-------6-------2----|
B--4-------0-------4-------0----|
F#--4-------0-------4-------0----|
B--4-------0-------4-------0----|
Chorus:http://linkinsoldiers.blogspot.com/
C#|-----------------------------------------|
G#|-----------------------------------------|
E|-------------6-7-6-4-2--2--2-2-----------|
B|--4--4--4-4--6-7-6-4-2--2--2-2-5-5-5-7---|
F#|--4--4--4-4--4-5-4-2-0--0--0-0-5-5-5-7---|
B|--4--4--4-4--------------------5-5-5-7---|
Outro:
C#|-------------------------------------|
G#|-------------------------------------|
E|-------------------------------------|
B|--4-4---4-4-4-4---4-4-4---4-4-4-5-7--|
F#|--4-4---4-4-4-4---4-4-4---4-4-4-5-7--|
B|--4-4---4-4-4-4---4-4-4---4-4-4-5-7--|

Forgotten

Dropped D, Down 1/2 Step
--------------------------
Tuning (low to high): Db Ab Db Gb Bb Eb
x = mute
* = natural harmonic
p = pull off
/ = slide
All parts played with distortion, unless otherwise noted.
Riff 1:
Eb---------------------------------------------
Bb---------------------------------------------
Gb-----------------------------------7*-------
Db----3p2---2---2-2-2--2-3p2--2----7*-------
Ab----3p2---2---2-2-2--2-3p2--2--------------
Db----3p2---2---2-2-2--2-3p2--2--------------
Riff 2:
Eb--------------------------------------------
Bb--------------------------------------------
Gb--------------------------------------------
Db----3p2---2---2-2-2--2-3p2--2-------------
Ab----3p2---2---2-2-2--2-3p2--2-------------
Db----3p2---2---2-2-2--2-3p2--2-------------
Repeat Riff 1
Riff 3:
Eb--------------------------------------------
Bb--------------------------------------------
Gb--------------------------------------------
Db----3p2---2---2-2-2--2-3---3--2-2/5-------
Ab----3p2---2---2-2-2--2-3---3--2-2/5-------
Db----3p2---2---2-2-2--2-3---3--2-2/5-------
The verses are various combinations of the following two riffs:
Verse Riff 1: (clean, w/ delay)
Eb--------7----5-------------------------------
Bb------5---5----5----------8------------------
Gb-----------------5----5-7--------------------
Db----7---------------7------------------------
Ab---------------------------------------------
Db---------------------------------------------
Verse Riff 2: (clean, w/ delay)
Eb--------7----5--------------------------------
Bb------5---5----5-----------------8------------
Gb-----------------5-----7p5h7p5-7-------------
Db----7----------------7------------------------
Ab----------------------------------------------
Db----------------------------------------------
Repeat Riff 1 and Riff 3
Chorus: (4x)
http://linkinsoldiers.blogspot.com/
Eb---------------------------------------------------------------
Bb---------------------------------------------------------------
Gb----------------9/10-10-10-x----------------------------------
Db----7---7--x-x--9/10-10-10-x--10--10--x-x-9h10-10-10--7-7---
Ab----7---7--x-x--7/8--8--8--x--10--10--x-x-9h10-10-10--7-7----
Db----7---7--x-x----------------10--10--x-x-9h10-10-10--7-7----
Return to Verse Riffs
Repeat - in this order - Riffs 1, 2, 1, and 3
Repeat Chorus (4x)
Bridge Riff 1: (2x)
Eb----------------------------------------------------------------
Bb----------------------------------------------------------------
Gb----------------------------------------------------------------
Db--3---3-3-3-3--3-3-3-2--3--5----------------------------------
Ab--3---3-3-3-3--3-3-3-2--3--5----------------------------------
Db--3---3-3-3-3--3-3-3-2--3--5----------------------------------
Bridge Riff 2: (2x)
Eb---------------------------------------------------------------
Bb---------------------------------------------------------------
Gb---------------------------------------------------------------
Db--7---7--7-7---5--7---3---3-3-3-3--3-3-3-2--3--5-------------
Ab--7---7--7-7---5--7---3---3-3-3-3--3-3-3-2--3--5-------------
Db--7---7--7-7---5--7---3---3-3-3-3--3-3-3-2--3--5-------------
Bridge Riff 3: (1x)
Eb------------------------------------------------------------------
Bb------------------------------------------------------------------
Gb------------------------------------------------------------------
Db--7---7--7-7---5--7---3---3-3-3-3--3-3-3-2--3--3--3----2----5--
Ab--7---7--7-7---5--7---3---3-3-3-3--3-3-3-2--3--3--3----2----5--
Db--7---7--7-7---5--7---3---3-3-3-3--3-3-3-2--3--3--3----2----5--
Repeat Chorus (8x - last time clean)

A Cure For The Itch

Its all just DJ stuff
via “Mr. Hahn”

Pushing Me Away

Dropped D, Down 1/2 Step
Intro/Verses:
Eb|(12)------------|------(12)------|---------------|----------------|
Bb|-------(12)-----|---(7)-----(12)-|------(12)-----|(12)---(7)------|
F#|----(7)---------|(5)-------------|---(7)---------|-----------(7)--|
C#|----------------|----------------|(7)------------|----(7)---------|
G#|------------(7)-|----------------|-----------(7)-|----------------|
C#|----------------|----------------|---------------|----------------|
N.H.
Throughout................................................................................
.........................................................................
Chorus 1:
http://linkinsoldiers.blogspot.com/
Eb|----------------------------------------------------------------------------|
Bb|----------------------------------------------------------------------------|
Gb|---------------------5--5--5-5--5-5---5-5----------------------2---2--2-4---|
Db|2--2--2-2--2-2---2-2-5--5--5-5--5-5---5-5-5---5--5-5--5-5--5-5-2---2--2-4--0|
Ab|2--2--2-2--2-2---2-2-3--3--3-3--3-3---3-3-5---5--5-5--5-5--5-5-0---0--0-2--0|
Db|2--2--2-2--2-2---2-2----------------------5---5--5-5--5-5--5-5-------------0|
Chorus 2:
Eb|----------------------------------------------------------------------------|
Bb|----------------------------------------------------------------------------|
F#|5--5--5-5--5-5--5-5-7--7--7-7--7-7---7-7-2---2---2-2--2-2---2-2------------5|
C#|5--5--5-5--5-5--5-5-7--7--7-7--7-7---7-7-2---2---2-2--2-2---2-2-4--4--4-5--5|
G#|3--3--3-3--3-3--3-3-5--5--5-5--5-5---5-5-0---0---0-0--0-0---0-0-4--4--4-5--2|
C#|----------------------------------------------------------------4--4--4-5---|

Deja un comentario

Tu dirección de correo electrónico no será publicada. Required fields are marked *.

You may use these HTML tags and attributes: <a href="" title=""> <abbr title=""> <acronym title=""> <b> <blockquote cite=""> <cite> <code> <del datetime=""> <em> <i> <q cite=""> <s> <strike> <strong>